0
SECTION
2
HEADER
9
$INSUNITS
70
4
9
$ACADVER
1
AC1014
9
$HANDSEED
5
FFFF
0
ENDSEC
0
SECTION
2
TABLES
0
TABLE
2
VPORT
5
8
100
AcDbSymbolTable
0
ENDTAB
0
TABLE
2
LTYPE
5
5
100
AcDbSymbolTable
0
LTYPE
5
14
100
AcDbSymbolTableRecord
100
AcDbLinetypeTableRecord
2
BYBLOCK
70
0
0
LTYPE
5
15
100
AcDbSymbolTableRecord
100
AcDbLinetypeTableRecord
2
BYLAYER
70
0
0
ENDTAB
0
TABLE
2
LAYER
5
2
100
AcDbSymbolTable
70
2
0
LAYER
5
50
100
AcDbSymbolTableRecord
100
AcDbLayerTableRecord
2
0
70
0
6
CONTINUOUS
0
ENDTAB
0
TABLE
2
STYLE
5
3
100
AcDbSymbolTable
70
1
0
STYLE
5
11
100
AcDbSymbolTableRecord
100
AcDbTextStyleTableRecord
2
STANDARD
70
0
0
ENDTAB
0
TABLE
2
VIEW
5
6
100
AcDbSymbolTable
70
0
0
ENDTAB
0
TABLE
2
UCS
5
7
100
AcDbSymbolTable
70
0
0
ENDTAB
0
TABLE
2
APPID
5
9
100
AcDbSymbolTable
70
2
0
APPID
5
12
100
AcDbSymbolTableRecord
100
AcDbRegAppTableRecord
2
ACAD
70
0
0
ENDTAB
0
TABLE
2
DIMSTYLE
5
A
100
AcDbSymbolTable
70
1
0
ENDTAB
0
TABLE
2
BLOCK_RECORD
5
1
100
AcDbSymbolTable
70
1
0
BLOCK_RECORD
5
1F
100
AcDbSymbolTableRecord
100
AcDbBlockTableRecord
2
*MODEL_SPACE
0
BLOCK_RECORD
5
1B
100
AcDbSymbolTableRecord
100
AcDbBlockTableRecord
2
*PAPER_SPACE
0
ENDTAB
0
ENDSEC
0
SECTION
2
BLOCKS
0
BLOCK
5
20
100
AcDbEntity
100
AcDbBlockBegin
2
*MODEL_SPACE
0
ENDBLK
5
21
100
AcDbEntity
100
AcDbBlockEnd
0
BLOCK
5
1C
100
AcDbEntity
100
AcDbBlockBegin
2
*PAPER_SPACE
0
ENDBLK
5
1D
100
AcDbEntity
100
AcDbBlockEnd
0
ENDSEC
0
SECTION
2
ENTITIES
0
LINE
5
100
100
AcDbEntity
8
0
100
AcDbLine
10
137.00000204145908
20
-70.000001043081284
30
17
11
137.00000204145908
21
40.000000596046448
31
17
0
LINE
5
101
100
AcDbEntity
8
0
100
AcDbLine
10
137.00000204145908
20
40.000000596046448
30
17
11
122.00000181794167
21
40.000000596046448
31
17
0
LINE
5
102
100
AcDbEntity
8
0
100
AcDbLine
10
122.00000181794167
20
40.000000596046448
30
17
11
-20
21
40
31
17
0
LINE
5
103
100
AcDbEntity
8
0
100
AcDbLine
10
-20
20
40
30
17
11
-35.000000521540642
21
40
31
17
0
LINE
5
104
100
AcDbEntity
8
0
100
AcDbLine
10
-35.000000521540642
20
40
30
17
11
-35.000000521540642
21
-70
31
17
0
LINE
5
105
100
AcDbEntity
8
0
100
AcDbLine
10
-35.000000521540642
20
-70
30
17
11
-20
21
-70
31
17
0
LINE
5
106
100
AcDbEntity
8
0
100
AcDbLine
10
-20
20
-70
30
17
11
122.00000181794167
21
-70.000001043081284
31
17
0
LINE
5
107
100
AcDbEntity
8
0
100
AcDbLine
10
122.00000181794167
20
-70.000001043081284
30
17
11
137.00000204145908
21
-70.000001043081284
31
17
0
CIRCLE
5
108
100
AcDbEntity
8
0
100
AcDbCircle
10
-29.499998605587194
20
29.999998115947619
30
17
40
1.500000000000008
210
0
220
-0
230
1
0
CIRCLE
5
109
100
AcDbEntity
8
0
100
AcDbCircle
10
-29.499998605587194
20
-49.999998413970843
30
17
40
1.500000000000008
210
0
220
-0
230
1
0
CIRCLE
5
110
100
AcDbEntity
8
0
100
AcDbCircle
10
131.50000190734863
20
29.999999225139611
30
17
40
1.5000000000000036
210
0
220
-0
230
1
0
CIRCLE
5
111
100
AcDbEntity
8
0
100
AcDbCircle
10
131.50000190734863
20
-49.999999523162835
30
17
40
1.5000000000000036
210
0
220
-0
230
1
0
ENDSEC
0
SECTION
2
OBJECTS
0
DICTIONARY
5
C
100
AcDbDictionary
3
ACAD_GROUP
350
D
3
ACAD_MLINESTYLE
350
17
0
DICTIONARY
5
D
100
AcDbDictionary
0
DICTIONARY
5
1A
330
C
100
AcDbDictionary
0
DICTIONARY
5
17
100
AcDbDictionary
0
ENDSEC
0
EOF
